  0
SECTION
  2
HEADER
  9
$ACADVER
  1
AC1009
  9
$INSBASE
 10
147.0817520925767
 20
195.8640300260598
 30
0.0
  9
$EXTMIN
 10
146.5639851396103
 20
195.3462630730934
 30
0.0
  9
$EXTMAX
 10
228.8505328966824
 20
236.3817969790262
 30
0.0
  9
$LIMMIN
 10
0.0
 20
0.0
  9
$LIMMAX
 10
420.0
 20
297.0
  9
$ORTHOMODE
 70
     1
  9
$REGENMODE
 70
     0
  9
$FILLMODE
 70
     1
  9
$QTEXTMODE
 70
     0
  9
$MIRRTEXT
 70
     0
  9
$DRAGMODE
 70
     2
  9
$LTSCALE
 40
1.0
  9
$OSMODE
 70
     0
  9
$ATTMODE
 70
     1
  9
$TEXTSIZE
 40
3.5
  9
$TRACEWID
 40
0.1
  9
$TEXTSTYLE
  7
STANDARD
  9
$CLAYER
  8
4AN
  9
$CELTYPE
  6
BYLAYER
  9
$CECOLOR
 62
   256
  9
$DIMSCALE
 40
1.0
  9
$DIMASZ
 40
2.5
  9
$DIMEXO
 40
1.0
  9
$DIMDLI
 40
8.0
  9
$DIMRND
 40
0.0
  9
$DIMDLE
 40
0.0
  9
$DIMEXE
 40
2.0
  9
$DIMTP
 40
0.1
  9
$DIMTM
 40
0.1
  9
$DIMTXT
 40
3.5
  9
$DIMCEN
 40
2.0
  9
$DIMTSZ
 40
0.0
  9
$DIMTOL
 70
     0
  9
$DIMLIM
 70
     0
  9
$DIMTIH
 70
     0
  9
$DIMTOH
 70
     0
  9
$DIMSE1
 70
     0
  9
$DIMSE2
 70
     0
  9
$DIMTAD
 70
     1
  9
$DIMZIN
 70
     8
  9
$DIMBLK
  1

  9
$DIMASO
 70
     1
  9
$DIMSHO
 70
     1
  9
$DIMPOST
  1

  9
$DIMAPOST
  1

  9
$DIMALT
 70
     0
  9
$DIMALTD
 70
     2
  9
$DIMALTF
 40
25.39999999999999
  9
$DIMLFAC
 40
1.0
  9
$DIMTOFL
 70
     1
  9
$DIMTVP
 40
0.0
  9
$DIMTIX
 70
     0
  9
$DIMSOXD
 70
     0
  9
$DIMSAH
 70
     0
  9
$DIMBLK1
  1

  9
$DIMBLK2
  1

  9
$DIMSTYLE
  2
*UNNAMED
  9
$DIMCLRD
 70
   256
  9
$DIMCLRE
 70
   256
  9
$DIMCLRT
 70
     2
  9
$DIMTFAC
 40
0.71
  9
$DIMGAP
 40
1.5
  9
$LUNITS
 70
     2
  9
$LUPREC
 70
     3
  9
$SKETCHINC
 40
0.1
  9
$FILLETRAD
 40
2.5
  9
$AUNITS
 70
     0
  9
$AUPREC
 70
     1
  9
$MENU
  1

  9
$ELEVATION
 40
0.0
  9
$PELEVATION
 40
0.0
  9
$THICKNESS
 40
0.0
  9
$LIMCHECK
 70
     0
  9
$BLIPMODE
 70
     0
  9
$CHAMFERA
 40
2.5
  9
$CHAMFERB
 40
2.5
  9
$SKPOLY
 70
     1
  9
$TDCREATE
 40
2449377.416093634
  9
$TDUPDATE
 40
2449394.635799421
  9
$TDINDWG
 40
0.0011856481
  9
$TDUSRTIMER
 40
0.0011856481
  9
$USRTIMER
 70
     1
  9
$ANGBASE
 50
0.0
  9
$ANGDIR
 70
     0
  9
$PDMODE
 70
     3
  9
$PDSIZE
 40
0.0
  9
$PLINEWID
 40
0.0
  9
$COORDS
 70
     2
  9
$SPLFRAME
 70
     0
  9
$SPLINETYPE
 70
     6
  9
$SPLINESEGS
 70
     8
  9
$ATTDIA
 70
     1
  9
$ATTREQ
 70
     1
  9
$HANDLING
 70
     0
  9
$HANDSEED
  5
174CA
  9
$SURFTAB1
 70
     6
  9
$SURFTAB2
 70
     6
  9
$SURFTYPE
 70
     6
  9
$SURFU
 70
     6
  9
$SURFV
 70
     6
  9
$UCSNAME
  2

  9
$UCSORG
 10
0.0
 20
0.0
 30
0.0
  9
$UCSXDIR
 10
1.0
 20
0.0
 30
0.0
  9
$UCSYDIR
 10
0.0
 20
1.0
 30
0.0
  9
$PUCSNAME
  2

  9
$PUCSORG
 10
0.0
 20
0.0
 30
0.0
  9
$PUCSXDIR
 10
1.0
 20
0.0
 30
0.0
  9
$PUCSYDIR
 10
0.0
 20
1.0
 30
0.0
  9
$USERI1
 70
     0
  9
$USERI2
 70
     3
  9
$USERI3
 70
    15
  9
$USERI4
 70
     0
  9
$USERI5
 70
     0
  9
$USERR1
 40
1.0
  9
$USERR2
 40
1.0
  9
$USERR3
 40
0.0
  9
$USERR4
 40
1.0
  9
$USERR5
 40
0.0
  9
$WORLDVIEW
 70
     5
  9
$SHADEDGE
 70
     3
  9
$SHADEDIF
 70
    70
  9
$TILEMODE
 70
     1
  9
$MAXACTVP
 70
     4
  9
$PINSBASE
 10
9.894451402545646E+73
 20
0.0
 30
0.0
  9
$PLIMCHECK
 70
     0
  9
$PEXTMIN
 10
1.000000000000000E+20
 20
1.000000000000000E+20
 30
1.000000000000000E+20
  9
$PEXTMAX
 10
-1.000000000000000E+20
 20
-1.000000000000000E+20
 30
-1.000000000000000E+20
  9
$PLIMMIN
 10
0.0
 20
0.0
  9
$PLIMMAX
 10
420.0
 20
297.0
  9
$UNITMODE
 70
     0
  9
$VISRETAIN
 70
     0
  9
$PLINEGEN
 70
     0
  9
$PSLTSCALE
 70
     0
  9
$TREEDEPTH
 70
  3020
  9
$DWGCODEPAGE
  3
undefined
  0
ENDSEC
  0
SECTION
  2
TABLES
  0
TABLE
  2
VPORT
 70
     2
  0
VPORT
  2
*ACTIVE
 70
     0
 10
0.0
 20
0.0
 11
1.0
 21
1.0
 12
187.9076339669945
 22
227.8673696310059
 13
0.0
 23
0.0
 14
7.0
 24
7.0
 15
10.0
 25
10.0
 16
0.0
 26
0.0
 36
1.0
 17
0.0
 27
0.0
 37
0.0
 40
64.00667920989229
 41
1.275675675675675
 42
50.0
 43
0.0
 44
0.0
 50
0.0
 51
0.0
 71
     0
 72
   100
 73
     1
 74
     0
 75
     0
 76
     0
 77
     0
 78
     0
  0
ENDTAB
  0
TABLE
  2
LTYPE
 70
     2
  0
LTYPE
  2
CONTINUOUS
 70
    64
  3
Solid line
 72
    65
 73
     0
 40
0.0
  0
LTYPE
  2
GEN
 70
    64
  3
----------------------
 72
    65
 73
     2
 40
10000000000.0
 49
0.0
 49
10000000000.0
  0
ENDTAB
  0
TABLE
  2
LAYER
 70
     5
  0
LAYER
  2
0
 70
     0
 62
     7
  6
GEN
  0
LAYER
  2
ITEM_50
 70
    64
 62
     7
  6
CONTINUOUS
  0
LAYER
  2
ITEM_25
 70
    64
 62
     3
  6
CONTINUOUS
  0
LAYER
  2
ITEM_HILFE
 70
    64
 62
     3
  6
CONTINUOUS
  0
LAYER
  2
4AN
 70
     0
 62
     3
  6
CONTINUOUS
  0
ENDTAB
  0
TABLE
  2
STYLE
 70
     1
  0
STYLE
  2
STANDARD
 70
     0
 40
0.0
 41
1.0
 50
0.0
 71
     0
 42
3.5
  3
GENISO
  4

  0
ENDTAB
  0
TABLE
  2
VIEW
 70
     0
  0
ENDTAB
  0
TABLE
  2
UCS
 70
     0
  0
ENDTAB
  0
TABLE
  2
APPID
 70
     1
  0
APPID
  2
ACAD
 70
    64
  0
ENDTAB
  0
TABLE
  2
DIMSTYLE
 70
     0
  0
ENDTAB
  0
ENDSEC
  0
SECTION
  2
BLOCKS
  0
ENDSEC
  0
SECTION
  2
ENTITIES
  0
ARC
  8
ITEM_50
 10
149.5817520925767
 20
198.3640300260598
 30
0.0
 40
2.5
 50
180.0
 51
270.0000000000001
  0
ARC
  8
ITEM_50
 10
184.5817520925767
 20
198.3640300260598
 30
0.0
 40
2.5
 50
270.0000000000001
 51
0.0000000000000382
  0
ARC
  8
ITEM_50
 10
184.5817520925766
 20
233.3640300260598
 30
0.0
 40
2.5
 50
0.0000000000000509
 51
90.0
  0
ARC
  8
ITEM_50
 10
149.5817520925767
 20
233.3640300260598
 30
0.0
 40
2.5
 50
89.99999999999995
 51
180.0
  0
LINE
  8
ITEM_50
 10
149.5817520925767
 20
195.8640300260598
 30
0.0
 11
184.5817520925767
 21
195.8640300260598
 31
0.0
  0
LINE
  8
ITEM_50
 10
149.5817520925767
 20
235.8640300260598
 30
0.0
 11
184.5817520925766
 21
235.8640300260598
 31
0.0
  0
LINE
  8
ITEM_50
 10
187.0817520925767
 20
198.3640300260598
 30
0.0
 11
187.0817520925766
 21
233.3640300260598
 31
0.0
  0
LINE
  8
ITEM_50
 10
147.0817520925767
 20
198.3640300260598
 30
0.0
 11
147.0817520925767
 21
233.3640300260598
 31
0.0
  0
POINT
  8
ITEM_HILFE
 10
216.7335158414122
 20
215.8640300260598
 30
0.0
  0
POINT
  8
ITEM_HILFE
 10
167.0817520925767
 20
215.8640300260598
 30
0.0
  0
LINE
  8
ITEM_50
 10
228.7335158414122
 20
210.8640300260598
 30
0.0
 11
228.7335158414122
 21
208.8640300260597
 31
0.0
  0
LINE
  8
ITEM_50
 10
194.7336903105484
 20
214.1140300260605
 30
0.0
 11
194.7336903105484
 21
213.8140300260605
 31
0.0
  0
LINE
  8
ITEM_50
 10
228.7335158414122
 20
220.8640300260599
 30
0.0
 11
228.7335158414122
 21
210.8640300260598
 31
0.0
  0
LINE
  8
ITEM_50
 10
194.7336903105485
 20
217.6140300260605
 30
0.0
 11
194.7336903105484
 21
214.1140300260605
 31
0.0
  0
LINE
  8
ITEM_25
 10
199.231085768934
 20
219.0970300260599
 30
0.0
 11
210.2335158414122
 21
219.0970300260598
 31
0.0
  0
LINE
  8
ITEM_25
 10
199.2310857689339
 20
212.6310300260598
 30
0.0
 11
210.2335158414122
 21
212.6310300260598
 31
0.0
  0
ARC
  8
ITEM_50
 10
194.9336903105484
 20
217.9140300260604
 30
0.0
 40
0.2
 50
90.0
 51
179.9999999999997
  0
ARC
  8
ITEM_50
 10
194.9336903105484
 20
213.8140300260605
 30
0.0
 40
0.2
 50
179.9999999999997
 51
270.0
  0
LINE
  8
ITEM_50
 10
194.7336903105485
 20
217.9140300260604
 30
0.0
 11
194.7336903105485
 21
217.6140300260605
 31
0.0
  0
ARC
  8
ITEM_50
 10
196.3338722065603
 20
212.6140300260605
 30
0.0
 40
1.0
 50
44.99999999999984
 51
90.0
  0
ARC
  8
ITEM_50
 10
196.3338722065614
 20
219.1140300260604
 30
0.0
 40
1.0
 50
270.0
 51
315.0
  0
LINE
  8
ITEM_50
 10
194.9336903105484
 20
218.1140300260604
 30
0.0
 11
196.3338722065614
 21
218.1140300260604
 31
0.0
  0
LINE
  8
ITEM_50
 10
194.9336903105484
 20
213.6140300260605
 30
0.0
 11
196.3338722065603
 21
213.6140300260605
 31
0.0
  0
LINE
  8
ITEM_50
 10
216.7335158414122
 20
222.7640300260598
 30
0.0
 11
216.7335158414122
 21
208.9640300260598
 31
0.0
  0
LINE
  8
ITEM_50
 10
228.7335158414122
 20
222.7640300260597
 30
0.0
 11
228.7335158414122
 21
220.8640300260599
 31
0.0
  0
LINE
  8
ITEM_50
 10
199.9980857689338
 20
211.8640300260599
 30
0.0
 11
210.2335158414122
 21
211.8640300260599
 31
0.0
  0
LINE
  8
ITEM_50
 10
216.7335158414122
 20
220.5348738284709
 30
0.0
 11
216.7335158414122
 21
220.3640300260598
 31
0.0
  0
LINE
  8
ITEM_50
 10
199.2310857689339
 20
219.0970300260598
 30
0.0
 11
197.7310857689339
 21
219.0970300260598
 31
0.0
  0
LINE
  8
ITEM_50
 10
197.7310857689339
 20
212.6310300260598
 30
0.0
 11
199.2310857689339
 21
212.6310300260598
 31
0.0
  0
LINE
  8
ITEM_50
 10
199.9980857689339
 20
211.8640300260598
 30
0.0
 11
199.2310857689339
 21
212.6310300260598
 31
0.0
  0
LINE
  8
ITEM_50
 10
199.9980857689339
 20
219.8640300260598
 30
0.0
 11
199.2310857689339
 21
219.0970300260598
 31
0.0
  0
LINE
  8
ITEM_50
 10
199.9980857689339
 20
219.8640300260598
 30
0.0
 11
210.2335158414122
 21
219.8640300260598
 31
0.0
  0
LINE
  8
ITEM_50
 10
197.040978987748
 20
218.4069232448739
 30
0.0
 11
197.7310857689339
 21
219.0970300260598
 31
0.0
  0
LINE
  8
ITEM_50
 10
197.0409789877469
 20
213.321136807247
 30
0.0
 11
197.7310857689339
 21
212.6310300260598
 31
0.0
  0
LINE
  8
ITEM_50
 10
224.6435158414123
 20
222.7640300260598
 30
0.0
 11
216.7335158414122
 21
222.7640300260598
 31
0.0
  0
LINE
  8
ITEM_50
 10
224.9948373191474
 20
223.64667298153
 30
0.0
 11
224.6435158414123
 21
222.7640300260598
 31
0.0
  0
LINE
  8
ITEM_50
 10
224.9948373191474
 20
223.64667298153
 30
0.0
 11
228.3821943636772
 21
223.64667298153
 31
0.0
  0
LINE
  8
ITEM_50
 10
224.6435158414122
 20
208.9640300260598
 30
0.0
 11
216.7335158414122
 21
208.9640300260598
 31
0.0
  0
LINE
  8
ITEM_50
 10
224.9948373191474
 20
208.0813870705896
 30
0.0
 11
224.6435158414123
 21
208.9640300260598
 31
0.0
  0
LINE
  8
ITEM_50
 10
224.9948373191474
 20
208.0813870705896
 30
0.0
 11
228.3821943636772
 21
208.0813870705896
 31
0.0
  0
LINE
  8
ITEM_50
 10
228.7335158414122
 20
208.8640300260598
 30
0.0
 11
228.3821943636772
 21
208.0813870705896
 31
0.0
  0
LINE
  8
ITEM_50
 10
228.3821943636772
 20
223.64667298153
 30
0.0
 11
228.7335158414122
 21
222.7640300260598
 31
0.0
  0
CIRCLE
  8
ITEM_50
 10
167.0817520925767
 20
215.8640300260598
 30
0.0
 40
6.95
  0
POLYLINE
  8
ITEM_50
 66
     1
 10
0.0
 20
0.0
 30
0.0
  0
VERTEX
  8
ITEM_50
 10
166.5616861086191
 20
223.64667298153
 30
0.0
  0
VERTEX
  8
ITEM_50
 10
160.6018185765342
 20
220.2057418575463
 30
0.0
  0
SEQEND
  8
ITEM_50
  0
POLYLINE
  8
ITEM_50
 66
     1
 10
0.0
 20
0.0
 30
0.0
  0
VERTEX
  8
ITEM_50
 10
173.5616856086191
 20
220.2057418575463
 30
0.0
  0
VERTEX
  8
ITEM_50
 10
167.6018180765343
 20
223.64667298153
 30
0.0
  0
SEQEND
  8
ITEM_50
  0
POLYLINE
  8
ITEM_50
 66
     1
 10
0.0
 20
0.0
 30
0.0
  0
VERTEX
  8
ITEM_50
 10
174.0817515925767
 20
212.4230989020761
 30
0.0
  0
VERTEX
  8
ITEM_50
 10
174.0817515925767
 20
219.3049611500435
 30
0.0
  0
SEQEND
  8
ITEM_50
  0
POLYLINE
  8
ITEM_50
 66
     1
 10
0.0
 20
0.0
 30
0.0
  0
VERTEX
  8
ITEM_50
 10
167.6018180765343
 20
208.0813870705896
 30
0.0
  0
VERTEX
  8
ITEM_50
 10
173.561685608619
 20
211.5223181945733
 30
0.0
  0
SEQEND
  8
ITEM_50
  0
POLYLINE
  8
ITEM_50
 66
     1
 10
0.0
 20
0.0
 30
0.0
  0
VERTEX
  8
ITEM_50
 10
160.6018185765342
 20
211.5223181945733
 30
0.0
  0
VERTEX
  8
ITEM_50
 10
166.561686108619
 20
208.0813870705896
 30
0.0
  0
SEQEND
  8
ITEM_50
  0
POLYLINE
  8
ITEM_50
 66
     1
 10
0.0
 20
0.0
 30
0.0
  0
VERTEX
  8
ITEM_50
 10
160.0817525925766
 20
219.3049611500435
 30
0.0
  0
VERTEX
  8
ITEM_50
 10
160.0817525925766
 20
212.4230989020761
 30
0.0
  0
SEQEND
  8
ITEM_50
  0
ARC
  8
ITEM_50
 10
167.0817520925767
 20
215.8640300260598
 30
0.0
 40
7.8
 50
86.17696049728901
 51
93.82303950271062
  0
ARC
  8
ITEM_50
 10
167.0817520925767
 20
215.8640300260598
 30
0.0
 40
7.8
 50
26.17696049728045
 51
33.82303950271087
  0
ARC
  8
ITEM_50
 10
167.0817520925767
 20
215.8640300260598
 30
0.0
 40
7.8
 50
326.1769604972889
 51
333.8230395027194
  0
ARC
  8
ITEM_50
 10
167.0817520925767
 20
215.8640300260598
 30
0.0
 40
7.8
 50
266.1769604972888
 51
273.823039502711
  0
ARC
  8
ITEM_50
 10
167.0817520925767
 20
215.8640300260598
 30
0.0
 40
7.8
 50
206.1769604972803
 51
213.8230395027109
  0
ARC
  8
ITEM_50
 10
167.0817520925767
 20
215.8640300260598
 30
0.0
 40
7.8
 50
146.1769604972894
 51
153.8230395027196
  0
CIRCLE
  8
ITEM_50
 10
167.0817520925767
 20
215.8640300260598
 30
0.0
 40
1.75
  0
CIRCLE
  8
ITEM_50
 10
167.0817520925767
 20
215.8640300260598
 30
0.0
 40
2.067
  0
ARC
  8
ITEM_25
 10
167.0817520925767
 20
215.8640300260598
 30
0.0
 40
2.499999999999998
 50
247.4999999999997
 51
157.5000000000004
  0
CIRCLE
  8
ITEM_50
 10
167.0817520925767
 20
215.8640300260598
 30
0.0
 40
2.6
  0
LINE
  8
ITEM_50
 10
199.9980857689339
 20
219.8640300260598
 30
0.0
 11
199.9980857689339
 21
211.8640300260598
 31
0.0
  0
LINE
  8
ITEM_50
 10
199.231085768934
 20
219.0970300260599
 30
0.0
 11
199.2310857689339
 21
212.6310300260598
 31
0.0
  0
LINE
  8
ITEM_50
 10
197.7310857689339
 20
219.0970300260598
 30
0.0
 11
197.7310857689339
 21
212.6310300260598
 31
0.0
  0
LINE
  8
ITEM_50
 10
224.6435158414123
 20
222.7640300260598
 30
0.0
 11
224.6435158414122
 21
208.9640300260598
 31
0.0
  0
ARC
  8
ITEM_50
 10
228.2354989482747
 20
221.8559925451041
 30
0.0
 40
3.595
 50
177.6525382610169
 51
207.325211651717
  0
ARC
  8
ITEM_50
 10
225.1415327345497
 20
221.8559925451041
 30
0.0
 40
3.595
 50
332.6747883482828
 51
2.347461738982942
  0
LINE
  8
ITEM_50
 10
225.0234114880118
 20
220.2057418575463
 30
0.0
 11
228.3536201948128
 21
220.2057418575463
 31
0.0
  0
LINE
  8
ITEM_50
 10
225.0234114880118
 20
211.5223181945733
 30
0.0
 11
228.3536201948128
 21
211.5223181945733
 31
0.0
  0
ARC
  8
ITEM_50
 10
225.1415327345497
 20
209.8720675070156
 30
0.0
 40
3.595
 50
357.652538261017
 51
27.32521165171718
  0
ARC
  8
ITEM_50
 10
228.2354989482747
 20
209.8720675070156
 30
0.0
 40
3.595
 50
152.6747883482829
 51
182.347461738983
  0
ARC
  8
ITEM_50
 10
203.7335158414122
 20
215.8640300260598
 30
0.0
 40
25.0
 50
349.937167620339
 51
10.06283237966088
  0
ARC
  8
ITEM_50
 10
249.6435158414123
 20
215.8640300260598
 30
0.0
 40
25.0
 50
169.937167620339
 51
190.0628323796609
  0
LINE
  8
ITEM_50
 10
216.7335158414122
 20
222.1931862236486
 30
0.0
 11
216.7335158414122
 21
209.5348738284709
 31
0.0
  0
ARC
  8
ITEM_50
 10
215.4835158414122
 20
221.3640300260598
 30
0.0
 40
1.5
 50
33.55730976192071
 51
146.442690238079
  0
ARC
  8
ITEM_50
 10
215.4835158414122
 20
210.3640300260598
 30
0.0
 40
1.5
 50
213.5573097619209
 51
326.4426902380792
  0
LINE
  8
ITEM_50
 10
210.2335158414122
 20
195.8640300260598
 30
0.0
 11
211.7335158414122
 21
195.8640300260598
 31
0.0
  0
ARC
  8
ITEM_50
 10
211.7335158414122
 20
198.3640300260598
 30
0.0
 40
2.5
 50
270.0
 51
0.0
  0
ARC
  8
ITEM_50
 10
211.7335158414122
 20
233.3640300260598
 30
0.0
 40
2.5
 50
0.0
 51
90.0
  0
LINE
  8
ITEM_50
 10
210.2335158414122
 20
235.8640300260598
 30
0.0
 11
211.7335158414122
 21
235.8640300260598
 31
0.0
  0
LINE
  8
ITEM_50
 10
214.2335158414122
 20
198.3640300260598
 30
0.0
 11
214.2335158414122
 21
233.3640300260598
 31
0.0
  0
LINE
  8
ITEM_50
 10
210.2335158414122
 20
195.8640300260598
 30
0.0
 11
210.2335158414122
 21
235.8640300260598
 31
0.0
  0
ENDSEC
  0
EOF
